Aage Bhi Jaane Na Tu Tabs – Asha Bhosle

Share
  • Document
  • 38 KB
Min ₹ 15
Description

Aage Bhi Jaane Na Tu Guitar Tabs easy lesson from old Hindi movie Waqt sung by Asha Bhosle.

The Amount include 3rd party transaction fee + GST.

It will be a matter of great pleasure for us if you buy it at a higher price than stated. Thank you.
हमारे लिए बहुत खुशी की बात होगी अगर आप इसे बताये हुए रुपयों से ज़्यादा कीमत पर खरीदते है. धन्यवाद

B|-------3---2-3-2-------0--
G|---2----------------2------
D|-4--------------------------
Aage bhi jaane na tu

B|-------0------0------------
G|---2------2------2--------
D|-4-------------------4-2--
Peechhe bhi jaane na tu

G|----------2--
D|-0-2-4------
Jo bhi hai

G|----2--------------------
D|-4-----4-2-0-----2-0--
A|----------------2--------
Bas yahi ek pal hai