Aap Jaisa Koi Meri Zindagi Mein Tabs

Share
  • Document
  • 39 KB
Min ₹ 26
Description

Aap Jaisa Koi Meri Zindagi Mein Guitar Tabs sung by Nazia Hassan from old Hindi movie Qurbani.

The Amount include Merchant Fee + 3rd Party Transaction Fee + GST.

We will be glad if you buy it for more than the price mentioned. Thank you.
हमारे लिए बहुत खुशी की बात होगी अगर आप इसे बताये हुए रुपयों से ज़्यादा कीमत पर खरीदते है. धन्यवाद

E|---0----3-0-3-0-3-0---------
B|--------------------------1-3--
G|-0-----------------------------

E|---0----5-3-5-3-0----------------------
B|-------------------------1-3------------
G|-0--------------------------------------
D|-----------------------------------2-0--

B|-------------------1------------------------
G|----0-0-2-2-2---------------0-0---2-2--
D|-2---------------------2-2----------------
Aap Jaisa Koi Meri Zindagi Mein Aaye

Click to Download old Hindi songs guitar tabs PDF Book
NON-REFUNDABLE (No refund will be allotted once you bought it)
For Personal Use Only