Ae Mere Humsafar Tabs - Baazigar

Share
  • Document
  • 20 KB
Min ₹ 20
Description

Ae Mere Humsafar Guitar Tabs from 90's movie Baazigar. This beautiful song was sung by Alka Yagnik and Vinod Rathod.

The Amount include Merchant Fee + 3rd Party Transaction Fee + GST.

We will be glad if you buy it for more than the price mentioned. Thank you.
हमारे लिए बहुत खुशी की बात होगी अगर आप इसे बताये हुए रुपयों से ज़्यादा कीमत पर खरीदते है. धन्यवाद

B|-1--------------1-1--------------------------------------------
G|-----0-2-0-----------0-2-0-----------2-0--------------2-0--
D|----------------------------------3--------------3-3------------
Whistle Melody Part

B|-----------2-----------------------------------
G|-------1------1---------1---------1----------
D|-2-4-------------4-4--------4---------4-2--
Aye mere humsafar......

E|--------------------0------------------------------
B|-----------2-1-2-------2-------------------------
G|-------1--------------------1---------1----------
D|-2-4----------------------------4----------4-2--
Aye meri jaan-e-jaan...aa....aaa..

Click to Download old Hindi songs guitar tabs PDF Book
NON-REFUNDABLE (No refund will be allotted once you bought it)
For Personal Use Only