Behana Ne Bhai Ki Kalai Se Guitar Tabs

Share
  • Document
  • 37 KB
Min ₹ 26
Description

Behana Ne Bhai Ki Kalai Se Guitar Tabs from old Hindi movie Resham Ki Dori. A very special Raksha Bandhan Special Song Guitar Tabs.

The Amount include 3rd party transaction fee + other fee + GST.

We will be glad if you buy it for more than the price mentioned.
हमारे लिए बहुत खुशी की बात होगी अगर आप इसे बताये हुए रुपयों से ज़्यादा कीमत पर खरीदते है. धन्यवाद

G|-3-3-3----3-3-4----3-3-1---
Behana ne bhai ki kalai se

G|---------1--3--
D|-1--4----------
Veena Melody Part

G|-3-3-3----3-3-4----3-3-1---
Behana ne bhai ki kalai se

G|-1------1-4-3--
D|---1-4----------
Pyaar bandha hai

G|-4-4-3-1---------
D|-------------4-2--
Pyaar ke do taar se

Click to Download old Hindi songs guitar tabs PDF Book