Bharat Ki Beti Tabs - Gunjan Saxena

Share
  • Document
  • 36 KB
Min ₹ 25
Description

Bharat Ki Beti Guitar Tabs sung by Arijit Singh from Bollywood Hindi movie Gunjan Saxena.

The Amount include Merchant Fee + 3rd Party Transaction Fee + GST.

We will be glad if you buy it for more than the price mentioned. Thank you.
हमारे लिए बहुत खुशी की बात होगी अगर आप इसे बताये हुए रुपयों से ज़्यादा कीमत पर खरीदते है. धन्यवाद

E|--------------------0--
B|-1---1-1-1-1-3------
Ho sadte main jawaan

B|-1-1---1-3---1-0------
G|----------------------2--
Meri dil jaaniya

E|-------------------0--
B|----1---1---1-3-----
G|-0-------------------
Main sheesh jhukawan

B|-1-1---1-3---1-0------
G|----------------------2--
Meri dil jaaniya

Click to Download old Hindi songs guitar tabs PDF Book
NON-REFUNDABLE (No refund will be allotted once you bought it)