Chalte Chalte Mere Ye Geet Tabs - Kishore Kumar

Share
  • Document
  • 37 KB
Min ₹ 26
Description

Chalte Chalte Mere Ye Geet Guitar Tabs easy lesson, sung by Kishore Kumar from old Hindi movie Jaise Ko Taisa.

The Amount include Merchant Fee + 3rd Party Transaction Fee + GST.

We will be glad if you buy it for more than the price mentioned. Thank you.
हमारे लिए बहुत खुशी की बात होगी अगर आप इसे बताये हुए रुपयों से ज़्यादा कीमत पर खरीदते है. धन्यवाद

G|--------2-2------
D|-4-4----------4--
Chalte Chalte

B|----------0-------2-2--2-0-2--
G|---1-2-------2------------------
D|-4-------------------------------
Mere Yeh Geet Yaad Rakhna

G|---1---2---2-2---1-----------
D|-4---------------------4-4-2--
Kabhi Alvida Na Kahna

B|-------------0--------------------------------------
G|------2-2-------2--1------------2-1------1------
D|------------------------4-4--4---------4------4--
A|-4-4-----------------------------------------------
Kabhi Alvida Na Kahnaa...aa...aa

Click to Download old Hindi songs guitar tabs PDF Book
NON-REFUNDABLE (No refund will be allotted once you bought it)
For Personal Use Only