Chaudhvin Ka Chand Ho Tabs

Share
  • Document
  • 37 KB
Min ₹ 18
Description

Chaudhvin Ka Chand Ho Guitar Tabs sung by Mohammed Rafi from old Hindi movie Chaudhvin Ka Chand.

The Amount include Merchant Fee + 3rd Party Transaction Fee + GST.

We will be glad if you buy it for more than the price mentioned. Thank you.
हमारे लिए बहुत खुशी की बात होगी अगर आप इसे बताये हुए रुपयों से ज़्यादा कीमत पर खरीदते है. धन्यवाद

G|----------0-----------0---0-0--
D|-0---2---------2----------------
Chaudvin Ka Chand Ho

B|-------------0--------------------0--
G|-0---2-2---------0-2---0-2--------
Ya Aaftaab Ho

B|-0--3-3---0-0--------------3---0-3--
G|-------------------2-0-2--------------
Jo Bhi Ho Tum Khuda Ki Kasam

B|-0-------------------------------
G|----2--0-0---0-2-0-----------
D|--------------------------2-0--
Lajawab Ho..o..o..

Click to Download old Hindi songs guitar tabs PDF Book
NON-REFUNDABLE (No refund will be allotted once you bought it)
For Personal Use Only