Dil Aisa Kisi Ne Mera Toda Tabs - Kishore Kumar

Share
  • Document
  • 36 KB
Min ₹ 26
Description

Dil Aisa Kisi Ne Mera Toda Guitar Tabs easy lesson sung by Kishore Kumar from old Hindi movie Amanush.

The Amount include Merchant Fee + 3rd Party Transaction Fee + GST.

We will be glad if you buy it for more than the price mentioned. Thank you.
हमारे लिए बहुत खुशी की बात होगी अगर आप इसे बताये हुए रुपयों से ज़्यादा कीमत पर खरीदते है. धन्यवाद

G|-------0-----------0-0--------------------
D|-1-3------3---1---------3-1-3---1------
A|----------------------------------------4--
Dil aisaa kisiine meraa toda

G|-------3-3--1-0--------0-------------
D|----1--------------3-3-----3-1-1-1--
A|-4-------------------------------------
Barbaadii kii taraf aisaa moda

G|-3-3---3-3---3-3-3-3-
Ek bhale maanush ko

B|-------2-1----------------------------
G|-3-3--------3-1-0-------------------
D|----------------------1-3-3---1------
A|------------------------------------4--
Amaanush banaake chhoda

NON-REFUNDABLE (No refund will be allotted once you bought it)
For Personal Use Only
Click to Download old Hindi songs guitar tabs PDF Book