Dil Tod Ke Guitar Tabs - B Praak

Share
  • Document
  • 36 KB
Min ₹ 26
Description

Dil Tod Ke Guitar Tabs easy lesson sung by B Praak.

The Amount include 3rd party transaction fee + GST.

It will be a matter of great pleasure for us if you buy it at a higher price than stated. Thank you.
हमारे लिए बहुत खुशी की बात होगी अगर आप इसे बताये हुए रुपयों से ज़्यादा कीमत पर खरीदते है. धन्यवाद

e|-1-1-1--2-1-1-----2---2------1-------------------------
B|------------------4----------4------4---2-4-2-2-1------
G|--------------------------------------------------------3--
Tum de rahi ho dil mein kisi aur ko jagah

B|----1-1--1-1-2-1-2----------------------
G|-1---------------------3--------1---------
D|---------------------------4-4------4-3--
Lekin koyi na chahega tumko meri tarah

e|-1--1-1-1--2---------1--
B|-----------------4-4------
Kya hai kusoor mera

NON-REFUNDABLE (No refund will be allotted once you bought it)
For Personal Use Only
Click to Download old Hindi songs guitar tabs PDF Book