Dilbar Mere Kab Tak Mujhe Tabs - Satte Pe Satta

Share
  • Document
  • 35 KB
Min ₹ 30
Description

Dilbar Mere Kab Tak Mujhe Guitar Tabs easy lesson from old Hindi movie Satte Pe Satta sung by Kishore Kumar.

The Amount include 3rd party transaction fee + GST.

It will be a matter of great pleasure for us if you buy it at a higher price than stated. Thank you.
हमारे लिए बहुत खुशी की बात होगी अगर आप इसे बताये हुए रुपयों से ज़्यादा कीमत पर खरीदते है. धन्यवाद

E|-9----------9-------------------------------------
B|-------12------10-12---9-10---------9--------
G|-----------------------------------11--------9--
Hey... la la la la la la laaaaaaaaa

E|---------------9----10-9----------9--
B|----------10----------------10--------
G|-----11--------------------------------
D|-11------------------------------------
Dilbar mere kab tak mujhe

E|-10-9-------10-9------------
B|---------10----------10-12--
Aise hi tadpaoge

E|-10-10-10-9-9--------9-9--------------
B|--------------------12---------10--------
G|--------------------------------------11--
Main aag dil mein laga dunga woh

B|-----------------9-12---10-9---10-9---------
G|-10-------10-----------------------------11--
D|------11---------------------------------------
Ke pal mein pighal jaoge

Download old Hindi songs guitar tabs