Dooba Dooba Rehta Hoon Guitar Tabs

Share
  • Document
  • 38 KB
Min ₹ 26
Description

Dooba Dooba guitar tabs and leads sung by Mohit Chauhan and Silk Route from album Boondein.

The Amount include Merchant Fee + 3rd Party Transaction Fee + GST.

We will be glad if you buy it for more than the price mentioned. Thank you.
हमारे लिए बहुत खुशी की बात होगी अगर आप इसे बताये हुए रुपयों से ज़्यादा कीमत पर खरीदते है. धन्यवाद

G|---0-2-2-0-2-2-----------------------
D|-3-----------------3----0-0-0-0------
A|--------------------------------------3--
La La La Ley Ya La Lala Lala

B|-----------------1-1-------------------------
G|---0-2-2---2---------2-----------------------
D|-3-------------------------3----0-0-0-0-----
A|----------------------------------------------3--

Haah!

G|---0-2-2-0-2-2-----------------------
D|-3-----------------3----0-0-0-0------
A|---------------------------------------3--
Dooba Dooba Rehta Hoon Aankhon Me Teri

G|---0-2-2-0-2-0-----------------0-----
D|-3-----------------3----0-0-0-------3--
Deewana Ban Gaya Hoon Main Chaahat Me Teri

NON-REFUNDABLE (No refund will be allotted once you bought it)
For Personal Use Only
Click to Download old Hindi songs guitar tabs PDF Book