Gaata Rahe Mera Dil Tabs - Guide

Share
  • Image
  • 17 KB
Min ₹ 18
Description

Gaata Rahe Mera Dil Guitar Tabs from old Hindi movie sung by Lata Mangeshkar and Kishore Kumar.

The Amount include Merchant Fee + 3rd Party Transaction Fee + GST.

We will be glad if you buy it for more than the price mentioned. Thank you.
हमारे लिए बहुत खुशी की बात होगी अगर आप इसे बताये हुए रुपयों से ज़्यादा कीमत पर खरीदते है. धन्यवाद

B|-------1-3----1-----1--
G|-0-2-------------2-----
Gaata rahe mera dil

B|-------1-3----1-------1--
G|-0-2--------------2-------
Tuhi meri manzil

B|-------1-3----1-------1--
G|-0-2--------------2-------
Gata rahe mera dil

B|-------1-3----1------1----------
G|-0-2-------------2--------2-0--
Tu hi meri manzil haay

Click to Download old Hindi songs guitar tabs PDF Book
NON-REFUNDABLE (No refund will be allotted once you bought it)
For Personal Use Only