Ghar Se Nikalte Hi Guitar Tabs

Share
  • Document
  • 40 KB
Min ₹ 15
Description

Ghar Se Nikalte Hi Guitar Tabs easy lesson from 90's Hindi movie Papa Kehte Hai sung by Udit Narayan.

The Amount include 3rd party transaction fee + GST.

It will be a matter of great pleasure for us if you buy it at a higher price than stated. Thank you.
हमारे लिए बहुत खुशी की बात होगी अगर आप इसे बताये हुए रुपयों से ज़्यादा कीमत पर खरीदते है. धन्यवाद

G|------------------------0------
D|-2-3-2-0---2-3---2------3--
Ghar Se Nikalte Hi

B|------------1---------------------
G|-2-2---2-------2-0------0------
D|-----------------------2------3--
Kuch Door Chalte Hi

E|-------1---0-----------------
B|-1-1----------1-------------
G|-------------------0---0-2--
Raste Main Hai Uska Ghar

G|------------------------0------
D|-2-3-2-0---2-3---2------3--
Kal subah dekha to

Download old Hindi songs guitar tabs