Gulabi Aankhen Guitar Tabs

Share
  • Document
  • 36 KB
Min ₹ 15
Description

Gulabi Aankhen Guitar Tabs and leads from Hindi movie The Train sung by Mohammed Rafi and other best version sung by Atif Aslam and Sanam Puri.

The Amount include Merchant Fee + 3rd Party Transaction Fee + GST.
We will be glad if you buy it for more than the price mentioned. Thank you.
हमारे लिए बहुत खुशी की बात होगी अगर आप इसे बताये हुए रुपयों से ज़्यादा कीमत पर खरीदते है. धन्यवाद

e|------------0--
B|-0-1-3-------
Lal lal la la la

e|-1-0-1-0-----------------
B|--------------3-1-0-1-3--
Lal lal la la la

e|-0-----0------------------------
B|----3------3-1-0--------0-1--
G|---------------------2---------
Lal lal la la la

B|-3-1-3-1-0----------------0--
G|-----------------2-1-2---------
Lal lal la la la

Click to Download old Hindi songs guitar tabs PDF Book
NON-REFUNDABLE (No refund will be allotted once you bought it)
For Personal Use Only