Humko Sirf Tumse Pyar Hai Tabs - Barsaat

Share
  • Document
  • 38 KB
Min ₹ 25
Description

Humko Sirf Tumse Pyar Hai Guitar Tabs from 90's Hindi movie Barsaat, sung by Kumar Sanu and Alka Yagnik.

The Amount include 3rd party transaction fee + other fee + GST.

We will be glad if you buy it for more than the price mentioned.
हमारे लिए बहुत खुशी की बात होगी अगर आप इसे बताये हुए रुपयों से ज़्यादा कीमत पर खरीदते है. धन्यवाद

E|-0-3-2-2-0------0-3-2-2-0-----0-3-2-2-0------0--
B|---------------3----------------3----------------3-----
Starting Whistle Melody

E|-6\7--7-5-3---5-3-2-0------0-0--
B|----------------------------3---------
Starting Guitar Melody

E|----0-2-3-5---6\7--7-5-3---5-3-2-0------0-0--
B|-3-----------------------------------------3--------
Starting Guitar Melody

E|---------------------------0--
B|---------------------1-3-----
G|-2-2--------2-2-------------
D|-------2-2-------------------
Humko sirf tumse pyaar hai

B|-3-3-0-1---3-3-1-0------
G|-------------------------2--
Humko sirf tumse pyaar hai

NON-REFUNDABLE (No refund will be allotted once you bought it)
For Personal Use Only
Click to Download old Hindi songs guitar tabs PDF Book