Judaiyaan Guitar Tabs - Darshan Raval

Share
  • Document
  • 52 KB
Min ₹ 25
Description

Judaiyaan Guitar Tabs and leads easy lesson sung by Darshan Raval and Shreya Ghoshal.

The Amount include Merchant Fee + 3rd Party Transaction Fee + GST.

We will be glad if you buy it for more than the price mentioned. Thank you.
हमारे लिए बहुत खुशी की बात होगी अगर आप इसे बताये हुए रुपयों से ज़्यादा कीमत पर खरीदते है. धन्यवाद

E|-0-2-4---0-2-4---7-5-4---

E|-0-2-4---0-2-0----------
B|---------------------4-2--
Music [x2]

B|-2--2-2-0----------2-2--2-0----------
G|-------------1-2------------------1-2--
Dard ki mehfil saja ke

B|-2-2--2-0----------------------
G|-------------2-1---------2-1--
D|---------------------4----------
Phir se tanha ho gaya

Click to Download old Hindi songs guitar tabs PDF Book
NON-REFUNDABLE (No refund will be allotted once you bought it)
For Personal Use Only