Khairiyat Guitar Tabs - Chhichhore

Share
  • Document
  • 36 KB
Min ₹ 20
Description

Khairiyat Guitar Tabs and leads sung by Arijit Singh from Bollywood Hindi movie Chhichhore.

The Amount include Merchant Fee + 3rd Party Transaction Fee + GST.

We will be glad if you buy it for more than the price mentioned. Thank you.
हमारे लिए बहुत खुशी की बात होगी अगर आप इसे बताये हुए रुपयों से ज़्यादा कीमत पर खरीदते है. धन्यवाद

B|-1----1-4-3---
G|---3------------
Khairiyat pucho

B|-3-4--3-1-------1---------1-4-3---
G|--------------3--------3-------------
Kabhi to kaifiyat pucho

B|-4-3-1-----------------4-3---
G|-----------3-3-2-3-----------
Tumhare bin deewane ka

B|-1----------------
G|---3-1-3-1-0---
Kya haal hai

Click to Download old Hindi songs guitar tabs PDF Book
NON-REFUNDABLE (No refund will be allotted once you bought it)
For Personal Use Only