Lag Jaa Gale Guitar Tabs - Lata Mangeshkar

Share
  • Document
  • 38 KB
Min ₹ 26
Description

Lag Jaa Gale Guitar Tabs from old Hindi movie Woh Jo Hasina, sung by Lata Mangeshkar.

The Amount include 3rd party transaction fee + other fee + GST.

We will be glad if you buy it for more than the price mentioned.
हमारे लिए बहुत खुशी की बात होगी अगर आप इसे बताये हुए रुपयों से ज़्यादा कीमत पर खरीदते है. धन्यवाद

B|---0-----0---0------0---0--
G|------2----------2----------
D|-0---------------------------
Lag Ja Gale Ke Phir Ye

B|-0-0------0-----------1-0-------------------
G|-------2------0-0-2--------2---0-----------
D|--------------------------------------4-2-0--
Haseen Raat Ho Na Ho o o o

G|-----------------2-----------
D|-0-2---2-2-4------4-2-0--
Shayad Phir Is Janam Mein

NON-REFUNDABLE (No refund will be allotted once you bought it)
For Personal Use Only
Click to Download old Hindi songs guitar tabs PDF Book