Mere Bhaiya Mere Chanda Tabs

Share
  • Document
  • 37 KB
Min ₹ 20
Description

Mere Bhaiya Mere Chanda Guitar Tabs sung by Asha Bhosle from old Hindi movie Kaajal. A very special Raksha Bandhan special song guitar tabs.

The Amount include 3rd party transaction fee + other fee + GST.

We will be glad if you buy it for more than the price mentioned.
हमारे लिए बहुत खुशी की बात होगी अगर आप इसे बताये हुए रुपयों से ज़्यादा कीमत पर खरीदते है. धन्यवाद

B|-0-------------------------------------
G|---0-2------0---------0--------------
D|----------4------2-4------2-4-0-2--
Hmm....Hmm...Hmm

B|-0--------------
G|---2-0---------
D|----------4-2--
Hmm~mm...mm...mmm

G|-0----------------0---------------
D|---4---2-0-2--------4---2-0-2--
Mere bhaiya, mere chanda

G|-----------------------0-----
D|-2-0----------0-2-------4--
A|---------2-2-----------------
Mere, anmol ratan

Click to Download old Hindi songs guitar tabs PDF Book