Meri Soni Meri Tamanna Tabs - Yaadon Ki Baaraat

Share
  • Document
  • 37 KB
Min ₹ 26
Description

Meri Soni Meri Tamanna Guitar Tabs easy lesson, sung by Kishore Kumar and Asha Bhosle from old Hindi movie Yaadon Ki Baaraat.

The Amount include 3rd party transaction fee + GST.

It will be a matter of great pleasure for us if you buy it at a higher price than stated. Thank you.
हमारे लिए बहुत खुशी की बात होगी अगर आप इसे बताये हुए रुपयों से ज़्यादा कीमत पर खरीदते है. धन्यवाद

E|-----------------------------1-----------
B|-1---1-1---1-1---1-3-4------3-4-1--
O meri soni, meri tamanna

E|----------1----------------1---------
B|-1-3--4-----3-4-1----3------------
G|--------------------------------2-3--
Jhoot nahin hai mera pyaar

B|-------------------1-3-4-1-3-------
G|-3-3---3-3---3-----------------3--
Deewaane se ho gayi galti,

E|---------------------0--
B|-----3-0---0-1-3------
G|-0----------------------
Jaaneee do yaar

NON-REFUNDABLE (No refund will be allotted once you bought it)
For Personal Use Only
Click to Download old Hindi songs guitar tabs PDF Book