Pardesiya Yeh Sach Hai Piya Tabs - Mr. Natwarlal

Share
  • Document
  • 37 KB
Min ₹ 26
Description

Pardesiya Yeh Sach Hai Piya Guitar Tabs from old Hindi movie Mr. Natwarlal sung by Kishore Kumar and Lata Mangeshkar.

The Amount include Merchant Fee + 3rd Party Transaction Fee + GST.

We will be glad if you buy it for more than the price mentioned. Thank you.
हमारे लिए बहुत खुशी की बात होगी अगर आप इसे बताये हुए रुपयों से ज़्यादा कीमत पर खरीदते है. धन्यवाद

E|-------------------------6--
B|-7-7-7--------7-7-7------
G|----------9-----------------
Ae ae re chori chori

E|-------------------------6--
B|-7-7-7--------7-7-7------
G|----------9-----------------
Milte hai re chand chakori

E|-------------7-6---
B|-9---7-9----------
O... Pardesiya....

E|--------7-6---------------7-6--
B|-7-9----------9-7-7-9---------
Pardesiya yeh such hai piya

B|-9-9-7-9-9-7-9-------
G|---------------------9--
Sab kehte hai maine...

E|---------6--------------
B|-----7-------9-7-7---
G|-9-------------------
Tujhko dil de diya

NON-REFUNDABLE (No refund will be allotted once you bought it)
For Personal Use Only
Click to Download old Hindi songs guitar tabs PDF Book