Pehla Nasha Guitar Tabs - Jo Jeeta Wohi Sikandar

Share
  • Document
  • 39 KB
Min ₹ 12
Description

Pehla Nasha Guitar Tabs & leads easy lesson from Hindi movie Jo Jeeta Wohi Sikandar sung by Udit Narayan and Sadhna Sargam.

**The Amount include 3rd party transaction fee + GST.

It will be a matter of great pleasure for us if you buy it at a higher price than stated. Thank you.
हमारे लिए बहुत खुशी की बात होगी अगर आप इसे बताये हुए रुपयों से ज़्यादा कीमत पर खरीदते है. धन्यवाद**

E|-0---------------------
B|---3-3-1-0-1-3------
G|--------------------2--
Chaahe Tum Kuch Na Kaho

E|-0-1-0-----------
B|----------3-1-1--
Maine Sun Liya...

E|-0-0--------3-----0------
B|-------3-1-----3------3--
Ke Saathi Pyaar Ka...

E|-0-1-0-----------
B|----------3-1-1--
Mujhe Chun Liya....

E|-------0--------0-----0------------0------
B|-1-3-----3--------3---------1-3-----3--
Chun Liyaaa..Maine Sun Liyaa