Saat Samundar Paar Tabs - Vishwatma

Share
  • Document
  • 40 KB
Min ₹ 25
Description

Saat Samundar Paar Guitar Tabs easy lesson, sung by Sadhana Sargam from 90's Hindi movie Vishwatma.

The Amount include 3rd party transaction fee + GST.

It will be a matter of great pleasure for us if you buy it at a higher price than stated. Thank you.
हमारे लिए बहुत खुशी की बात होगी अगर आप इसे बताये हुए रुपयों से ज़्यादा कीमत पर खरीदते है. धन्यवाद

E|----------4-1-2--
B|----2-4-----------
G|-3----------------
La la la la la la

E|-------------2---------
B|-------2-4------2-4--
G|-1-3------------------
La la la la la la

E|----------4-1-2--4---2--
B|----2-4-------------------
G|-3------------------------
La la la la la la

E|-------------2---------2------
B|-------2-4------2-4------4--
G|-1-3--------------------------
La la la la la la

E|-2---1---------
B|----------4-4--
Saat samundar

E|-2---1--------1-----------
B|---------4-4------4-2-4--
Saat samundar paar main tere

NON-REFUNDABLE (No refund will be allotted once you bought it)
For Personal Use Only
Click to Download old Hindi songs guitar tabs PDF Book