Tum Se Hi Guitar Tabs - Jab We Met

Share
  • Document
  • 38 KB
Min ₹ 20
Description

Tum Se Hi Guitar Tabs easy lesson from Bollywood Hindi movie Jab We Met sang by Mohit Chauhan.

The Amount include 3rd party transaction fee + GST.

It will be a matter of great pleasure for us if you buy it at a higher price than stated. Thank you.
हमारे लिए बहुत खुशी की बात होगी अगर आप इसे बताये हुए रुपयों से ज़्यादा कीमत पर खरीदते है. धन्यवाद

G|-3-2-3---2---3-2----
Aa aa aa aa aa aa... (Play 3 times)

B|------------1----------
G|-3-2-3--------3--2--
Aa aa aa aa... aa aa

B|----------1-------------1-3--
G|-2----2-----2-0----2--------
Na hai yeh pana

E|-----1---------------------
B|-3------3-1----3--1------
G|------------------------2--
Na Khona hi hai

Download old Hindi songs guitar tabs