Tum Se Hi Guitar Tabs - Sadak 2

Share
  • Document
  • 53 KB
Min ₹ 25
Description

Tum Se Hi Guitar Tabs from Bollywood Hindi movie Sadak 2 sung by Ankit Tiwari.

The Amount include Merchant Fee + 3rd Party Transaction Fee + GST.

We will be glad if you buy it for more than the price mentioned. Thank you.
हमारे लिए बहुत खुशी की बात होगी अगर आप इसे बताये हुए रुपयों से ज़्यादा कीमत पर खरीदते है. धन्यवाद

E|----------------------------1-1--
B|---1---2-1------2---2-4--------
G|-3-----------3-------------------
Do Dil Safar Mein Nikal Pade

B|--------1--------1---1-2-4-4--
G|-1-3------3-1------------------
Jana Kahan Kyun Fikar Kare

E|----------------------------1-1--
B|---1---2-1------2---2-4--------
G|-3-----------3-------------------
Kahan Thikana Ho Raat Ka

Click to Download old Hindi songs guitar tabs PDF Book
NON-REFUNDABLE (No refund will be allotted once you bought it)
For Personal Use Only