Tune Jo Na Kaha Guitar Tabs - New York

Share
  • Document
  • 53 KB
Min ₹ 18
Description

Tune Jo Na Kaha Guitar Tabs easy lesson and tutorial from Bollywood Hindi movie NewYork, sung by Mohit Chauhan.

The Amount include Merchant Fee + 3rd Party Transaction Fee + GST.

We will be glad if you buy it for more than the price mentioned. Thank you.
हमारे लिए बहुत खुशी की बात होगी अगर आप इसे बताये हुए रुपयों से ज़्यादा कीमत पर खरीदते है. धन्यवाद

B|---------------1------
G|----0-2---3------0--
D|-3--------------------
Tune jo na kaha

G|-0-2-----0-3-2--
D|-------3----------
Main woh sunta raha

B|--------------1---1------------------------------
G|---0-2---3-----------0---0-2---------0-3-2--
D|-3--------------------------------3--------------
Khamakha bewajah khwaab bunta raha

Click to Download old Hindi songs guitar tabs PDF Book
NON-REFUNDABLE (No refund will be allotted once you bought it)
For Personal Use Only