Yeh Jo Mohabbat Hai Tabs - Kishore Kumar

Share
  • Document
  • 36 KB
Min ₹ 26
Description

Yeh Jo Mohabbat Hai Guitar Tabs easy lesson sung by Kishore Kumar from old Hindi movie Kati Patang.
The Amount include Merchant Fee + 3rd Party Transaction Fee + GST.

We will be glad if you buy it for more than the price mentioned. Thank you.
हमारे लिए बहुत खुशी की बात होगी अगर आप इसे बताये हुए रुपयों से ज़्यादा कीमत पर खरीदते है. धन्यवाद

B|-1--1-1-------2-1-1--
G|-----------3------------
Hey...Yeh jo mohabbat hai

E|-------1-----------------
B|-1-1-----1--1-2-1-----
G|----------------------3--
Yeh unka hai kaam

B|-1-1-1-1-------2-1-1--
G|-------------3------------
Arre mehboob ka jo

E|-------1-----------------
B|-1-1-----1--1-2-1-----
G|----------------------3--
Bas lete hue naam

Click to Download old Hindi songs guitar tabs PDF Book
NON-REFUNDABLE (No refund will be allotted once you bought it)
For Personal Use Only